Selected Guitar Tunings
From Mary McCaslin

 3 FINGER PICKING CHART
OPEN 'C' TUNING and MUSIC STRINGS
'G' MINOR TUNING | 'A'TUNING | OPEN 'D' TUNING | OPEN 'G' TUNING

'A' Tuning

About 'A' tuning:
This is not an 'open' tuning like open 'Gm' tuning.
To tune into 'A' tuning, you lower the 'B' (2nd) string down to 'A'.
The rest of the strings remain at standard pitch.

 
Standard Tuning to 'A' tuning
 
E E
B -------------------> A
G G
Bass D D
Bass A A
Bass E E
 
 
 

-underlined strings in standard tuning are tuned down-

Over the years I've used 'A' tuning for lot's of songs, it's a favorite. The chords I've found and show here are beautiful and haunting - there are many more chords yet to be discovered.


I learned this wonderful tuning from Steve Gillette way back in the 1960's. Steve is originally from Southern California where he achieved legendary status for his songs and unique style of guitar playing. He now lives with his wife, folksinger/songwriter Cindy Mangsen, in Vermont. Aside from recordings on their own label, Compass Rose, Steve and Cindy each have recordings on many other labels.


I use this tuning for these songs -


 
A A7

E ||---|---|---|---|---|- E ||---|---|---|---|---|-
A ||---|---|---|---|---|- A ||---|---|---|---|---|-
G ||---|-3-|---|---|---|- G ||---|---|---|---|---|-
D ||---|-2-|---|---|---|- D ||---|-2-|---|---|---|-
A ||---|---|---|---|---|- A ||---|---|---|---|---|-
E ||---|---|---|---|---|- E ||---|---|---|---|---|-
 

A A

E ||---|---|---|---|---|- E ||---|---|---|---|---|-
A ||---|---|---|---|---|- A ||---|---|---|---|---|-
G ||---|-2-|---|---|---|- G ||---|-2-|---|---|---|-
D ||---|---|-3-|---|---|- D ||---|---|-4-|---|---|-
A ||---|---|---|---|---|- A ||---|---|-3-|---|---|-
E ||---|---|---|---|---|- E ||-T-|---|---|---|---|-
5th 5th
fret fret


D D sus

E ||---|-3-|---|---|---|- E ||---|---|---|---|---|-
A ||---|---|---|---|---|- A ||---|---|---|---|---|-
G ||---|-2-|---|---|---|- G ||---|(1)|---|---|---|-
D ||---|---|---|---|---|- D ||---|---|---|-2-|---|-
A ||---|---|---|---|---|- A ||---|---|---|---|-3-|-
E ||---|---|---|---|---|x E ||---|---|---|---|---|-

 
 
D sus D sus

E ||---|---|---|---|---|x E ||---|---|---|---|---|-
A ||---|---|---|---|---|- A ||---|---|---|---|---|-
G ||---|---|-4-|---|---|- G ||---|-1-|---|---|---|-
D ||---|---|-3-|---|---|- D ||---|---|---|-3-|---|-
A ||-1-|---|---|---|---|- A ||---|---|---|---|---|-
E ||---|---|---|---|---|x E ||---|---|---|---|---|x
5th
fret
 
 
E E sus

E ||---|---|---|---|---|- E ||---|---|---|---|---|-
A ||---|-4-|---|---|---|- A ||---|---|---|---|---|-
G ||-1-|---|---|---|---|- G ||-1-|---|---|---|---|-
D ||---|-3-|---|---|---|- D ||---|-3-|---|---|---|-
A ||---|-2-|---|---|---|- A ||---|-2-|---|---|---|-
E ||---|---|---|---|---|x E ||---|---|---|---|---|-

 
 
 
E sus E sus

E ||---|---|---|---|---|- E ||---|---|---|---|---|-
A ||---|---|---|---|---|- A ||---|---|---|---|---|-
G ||-1-|---|---|---|---|- G ||---|---|-4-|---|---|-
D ||---|---|-3-|---|---|- D ||---|---|-3-|---|---|-
A ||---|---|---|---|---|x A ||-1-|---|---|---|---|-
E ||---|---|---|---|---|- E ||---|---|---|---|---|-
4th 7th
fret fret
 
 
Em Em sus

E ||---|---|---|---|---|- E ||---|---|---|---|---|-
A ||---|-4-|---|---|---|- A ||---|---|---|---|---|-
G ||---|---|---|---|---|- G ||---|---|---|---|---|-
D ||---|-3-|---|---|---|- D ||---|-3-|---|---|---|-
A ||---|-2-|---|---|---|- A ||---|-2-|---|---|---|-
E ||---|---|---|---|---|x E ||---|---|---|---|---|-

 
 
Em sus C 6th

E ||---|---|---|---|---|- E ||---|---|---|---|---|-
A ||---|---|---|---|---|- A ||---|---|---|---|---|-
G ||---|---|---|---|---|- G ||---|---|---|---|---|-
D ||---|---|-3-|---|---|- D ||---|-2-|---|---|---|-
A ||-1-|---|---|---|---|- A ||---|---|-4-|---|---|-
E ||---|---|---|---|---|- E ||---|---|-3-|---|---|-
7th
fret
 
 
F Maj 7 F Maj 7 sus

E ||---|---|---|---|---|- E ||---|---|---|---|---|-
A ||---|---|---|---|---|- A ||---|---|---|---|---|-
G ||---|-2-|---|---|---|- G ||---|---|---|---|---|-
D ||---|---|-4-|---|---|- D ||---|---|-4-|---|---|-
A ||---|---|-3-|---|---|- A ||---|---|-3-|---|---|-
E ||-T-|---|---|---|---|- E ||-T-|---|---|---|---|-

 
 
F sus G sus

E ||---|---|---|---|---|x E ||---|---|---|---|---|x
A ||---|---|---|---|---|- A ||---|---|---|---|---|-
G ||---|---|---|---|---|- G ||---|---|---|---|---|-
D ||---|---|---|---|---|- D ||---|---|---|---|---|-
A ||---|---|---|---|---|- A ||---|---|---|---|---|x
E ||-1-|---|---|---|---|- E ||---|---|-3-|---|---|-

 
 
G sus G sus

E ||---|---|---|---|---|x E ||---|---|---|---|---|x
A ||---|---|---|---|---|- A ||---|---|---|---|---|-
G ||---|---|---|---|---|- G ||---|---|---|-2-|---|-
D ||---|---|---|---|---|- D ||---|---|---|---|-4-|-
A ||---|-2-|---|---|---|- A ||---|---|---|---|-3-|-
E ||---|---|-3-|---|---|- E ||---|---|-T-|---|---|-

 
 
F#m sus

E ||---|---|---|---|---|-
A ||---|---|---|---|---|-
G ||---|-1-|---|---|---|-
D ||---|---|---|-4-|---|-
A ||---|---|---|-3-|---|-
E ||---|-T-|---|---|---|-

 
 
 

 

HOME